  0
SECTION
  2
HEADER
  9
$ACADVER
  1
AC1009
  9
$INSBASE
 10
58.33216204065888
 20
47.29803986073522
 30
0.0
  9
$EXTMIN
 10
58.10431205870577
 20
42.50435341343183
 30
0.0
  9
$EXTMAX
 10
450.9763273155759
 20
257.3991946700853
 30
0.0
  9
$LIMMIN
 10
0.0
 20
-0.0000000000000514
  9
$LIMMAX
 10
420.0
 20
296.9999999999999
  9
$ORTHOMODE
 70
     1
  9
$REGENMODE
 70
     0
  9
$FILLMODE
 70
     1
  9
$QTEXTMODE
 70
     0
  9
$MIRRTEXT
 70
     0
  9
$DRAGMODE
 70
     2
  9
$LTSCALE
 40
1.0
  9
$OSMODE
 70
    32
  9
$ATTMODE
 70
     1
  9
$TEXTSIZE
 40
3.5
  9
$TRACEWID
 40
0.1
  9
$TEXTSTYLE
  7
STANDARD
  9
$CLAYER
  8
4AN
  9
$CELTYPE
  6
BYLAYER
  9
$CECOLOR
 62
   256
  9
$DIMSCALE
 40
1.0
  9
$DIMASZ
 40
2.5
  9
$DIMEXO
 40
1.0
  9
$DIMDLI
 40
8.0
  9
$DIMRND
 40
0.0
  9
$DIMDLE
 40
0.0
  9
$DIMEXE
 40
2.0
  9
$DIMTP
 40
0.1
  9
$DIMTM
 40
0.1
  9
$DIMTXT
 40
3.5
  9
$DIMCEN
 40
2.0
  9
$DIMTSZ
 40
0.0
  9
$DIMTOL
 70
     0
  9
$DIMLIM
 70
     0
  9
$DIMTIH
 70
     0
  9
$DIMTOH
 70
     0
  9
$DIMSE1
 70
     0
  9
$DIMSE2
 70
     0
  9
$DIMTAD
 70
     1
  9
$DIMZIN
 70
     8
  9
$DIMBLK
  1

  9
$DIMASO
 70
     1
  9
$DIMSHO
 70
     1
  9
$DIMPOST
  1

  9
$DIMAPOST
  1

  9
$DIMALT
 70
     0
  9
$DIMALTD
 70
     2
  9
$DIMALTF
 40
25.39999999999999
  9
$DIMLFAC
 40
1.0
  9
$DIMTOFL
 70
     1
  9
$DIMTVP
 40
0.0
  9
$DIMTIX
 70
     0
  9
$DIMSOXD
 70
     0
  9
$DIMSAH
 70
     0
  9
$DIMBLK1
  1

  9
$DIMBLK2
  1

  9
$DIMSTYLE
  2
*UNNAMED
  9
$DIMCLRD
 70
   256
  9
$DIMCLRE
 70
   256
  9
$DIMCLRT
 70
     2
  9
$DIMTFAC
 40
0.71
  9
$DIMGAP
 40
1.5
  9
$LUNITS
 70
     2
  9
$LUPREC
 70
     3
  9
$SKETCHINC
 40
0.1
  9
$FILLETRAD
 40
2.5
  9
$AUNITS
 70
     0
  9
$AUPREC
 70
     1
  9
$MENU
  1

  9
$ELEVATION
 40
0.0
  9
$PELEVATION
 40
0.0
  9
$THICKNESS
 40
0.0
  9
$LIMCHECK
 70
     0
  9
$BLIPMODE
 70
     0
  9
$CHAMFERA
 40
2.5
  9
$CHAMFERB
 40
2.5
  9
$SKPOLY
 70
     1
  9
$TDCREATE
 40
2449366.389007870
  9
$TDUPDATE
 40
2449394.638030092
  9
$TDINDWG
 40
0.0711679398
  9
$TDUSRTIMER
 40
0.0711679398
  9
$USRTIMER
 70
     1
  9
$ANGBASE
 50
0.0
  9
$ANGDIR
 70
     0
  9
$PDMODE
 70
     3
  9
$PDSIZE
 40
0.0
  9
$PLINEWID
 40
0.0
  9
$COORDS
 70
     2
  9
$SPLFRAME
 70
     0
  9
$SPLINETYPE
 70
     6
  9
$SPLINESEGS
 70
     8
  9
$ATTDIA
 70
     1
  9
$ATTREQ
 70
     1
  9
$HANDLING
 70
     0
  9
$HANDSEED
  5
65C7A42
  9
$SURFTAB1
 70
     6
  9
$SURFTAB2
 70
     6
  9
$SURFTYPE
 70
     6
  9
$SURFU
 70
     6
  9
$SURFV
 70
     6
  9
$UCSNAME
  2

  9
$UCSORG
 10
0.0
 20
0.0
 30
0.0
  9
$UCSXDIR
 10
1.0
 20
0.0
 30
0.0
  9
$UCSYDIR
 10
0.0
 20
1.0
 30
0.0
  9
$PUCSNAME
  2

  9
$PUCSORG
 10
0.0
 20
0.0
 30
0.0
  9
$PUCSXDIR
 10
1.0
 20
0.0
 30
0.0
  9
$PUCSYDIR
 10
0.0
 20
1.0
 30
0.0
  9
$USERI1
 70
     0
  9
$USERI2
 70
     3
  9
$USERI3
 70
    15
  9
$USERI4
 70
     0
  9
$USERI5
 70
     0
  9
$USERR1
 40
1.0
  9
$USERR2
 40
1.0
  9
$USERR3
 40
0.0
  9
$USERR4
 40
1.0
  9
$USERR5
 40
0.0
  9
$WORLDVIEW
 70
     5
  9
$SHADEDGE
 70
     3
  9
$SHADEDIF
 70
    70
  9
$TILEMODE
 70
     1
  9
$MAXACTVP
 70
     4
  9
$PINSBASE
 10
0.0
 20
0.0
 30
1.0
  9
$PLIMCHECK
 70
     0
  9
$PEXTMIN
 10
1.000000000000000E+20
 20
1.000000000000000E+20
 30
1.000000000000000E+20
  9
$PEXTMAX
 10
-1.000000000000000E+20
 20
-1.000000000000000E+20
 30
-1.000000000000000E+20
  9
$PLIMMIN
 10
0.0
 20
0.0
  9
$PLIMMAX
 10
420.0
 20
297.0
  9
$UNITMODE
 70
     0
  9
$VISRETAIN
 70
     0
  9
$PLINEGEN
 70
     0
  9
$PSLTSCALE
 70
     0
  9
$TREEDEPTH
 70
  3020
  9
$DWGCODEPAGE
  3
undefined
  0
ENDSEC
  0
SECTION
  2
TABLES
  0
TABLE
  2
VPORT
 70
     2
  0
VPORT
  2
*ACTIVE
 70
     0
 10
0.0
 20
0.0
 11
1.0
 21
1.0
 12
254.5403196871408
 22
196.4902068509762
 13
0.0
 23
0.0
 14
1.0
 24
1.0
 15
10.0
 25
10.0
 16
0.0
 26
0.0
 36
1.0
 17
0.0
 27
0.0
 37
0.0
 40
307.9717068750888
 41
1.275675675675675
 42
50.0
 43
0.0
 44
0.0
 50
0.0
 51
0.0
 71
     0
 72
   100
 73
     1
 74
     0
 75
     0
 76
     0
 77
     0
 78
     0
  0
ENDTAB
  0
TABLE
  2
LTYPE
 70
     1
  0
LTYPE
  2
CONTINUOUS
 70
    64
  3
Solid line
 72
    65
 73
     0
 40
0.0
  0
ENDTAB
  0
TABLE
  2
LAYER
 70
     5
  0
LAYER
  2
0
 70
     0
 62
     7
  6
CONTINUOUS
  0
LAYER
  2
ITEM_25
 70
    64
 62
     3
  6
CONTINUOUS
  0
LAYER
  2
ITEM_HILFE
 70
    64
 62
     3
  6
CONTINUOUS
  0
LAYER
  2
ITEM_50
 70
    64
 62
     7
  6
CONTINUOUS
  0
LAYER
  2
4AN
 70
     0
 62
     3
  6
CONTINUOUS
  0
ENDTAB
  0
TABLE
  2
STYLE
 70
     1
  0
STYLE
  2
STANDARD
 70
     0
 40
0.0
 41
1.0
 50
0.0
 71
     0
 42
3.5
  3
GENISO
  4

  0
ENDTAB
  0
TABLE
  2
VIEW
 70
     0
  0
ENDTAB
  0
TABLE
  2
UCS
 70
     0
  0
ENDTAB
  0
TABLE
  2
APPID
 70
     1
  0
APPID
  2
ACAD
 70
    64
  0
ENDTAB
  0
TABLE
  2
DIMSTYLE
 70
     0
  0
ENDTAB
  0
ENDSEC
  0
SECTION
  2
BLOCKS
  0
ENDSEC
  0
SECTION
  2
ENTITIES
  0
LINE
  8
ITEM_50
 10
446.1826408682725
 20
124.7595346999293
 30
0.0
 11
443.6826408682725
 21
124.7595346999293
 31
0.0
  0
LINE
  8
ITEM_50
 10
446.1826408682725
 20
253.1055082227787
 30
0.0
 11
443.6826408682725
 21
253.1055082227787
 31
0.0
  0
LINE
  8
ITEM_50
 10
446.1826408682725
 20
253.1055082227787
 30
0.0
 11
446.1826408682725
 21
124.7595346999293
 31
0.0
  0
LINE
  8
ITEM_50
 10
443.6826408682725
 20
253.1055082227787
 30
0.0
 11
443.6826408682725
 21
124.7595346999293
 31
0.0
  0
LINE
  8
ITEM_25
 10
65.60431205870577
 20
125.6417445971976
 30
0.0
 11
65.60431205870577
 21
127.7055082227819
 31
0.0
  0
LINE
  8
ITEM_25
 10
65.60431205870577
 20
127.7055082227819
 30
0.0
 11
62.37974386980158
 21
127.7055082227819
 31
0.0
  0
LINE
  8
ITEM_25
 10
65.60431205870577
 20
127.7055082227819
 30
0.0
 11
68.82888024760995
 21
127.7055082227819
 31
0.0
  0
LINE
  8
ITEM_25
 10
65.60431205870577
 20
129.8483521898036
 30
0.0
 11
65.60431205870577
 21
127.7055082227819
 31
0.0
  0
LINE
  8
ITEM_25
 10
370.3043120587057
 20
125.6417445971976
 30
0.0
 11
370.3043120587057
 21
127.7055082227818
 31
0.0
  0
LINE
  8
ITEM_25
 10
370.3043120587057
 20
127.7055082227818
 30
0.0
 11
367.0797438698015
 21
127.7055082227818
 31
0.0
  0
LINE
  8
ITEM_25
 10
370.3043120587057
 20
127.7055082227818
 30
0.0
 11
373.5288802476098
 21
127.7055082227818
 31
0.0
  0
LINE
  8
ITEM_25
 10
370.3043120587057
 20
129.8483521898036
 30
0.0
 11
370.3043120587057
 21
127.7055082227818
 31
0.0
  0
LINE
  8
ITEM_25
 10
370.3043120587057
 20
248.0417445971977
 30
0.0
 11
370.3043120587057
 21
250.1055082227819
 31
0.0
  0
LINE
  8
ITEM_25
 10
370.3043120587057
 20
250.1055082227819
 30
0.0
 11
367.0797438698015
 21
250.1055082227819
 31
0.0
  0
LINE
  8
ITEM_25
 10
370.3043120587057
 20
250.1055082227819
 30
0.0
 11
373.5288802476099
 21
250.1055082227819
 31
0.0
  0
LINE
  8
ITEM_25
 10
370.3043120587057
 20
252.2483521898038
 30
0.0
 11
370.3043120587057
 21
250.1055082227819
 31
0.0
  0
LINE
  8
ITEM_25
 10
65.60431205870577
 20
248.0417445971977
 30
0.0
 11
65.60431205870577
 21
250.1055082227819
 31
0.0
  0
LINE
  8
ITEM_25
 10
65.60431205870577
 20
250.1055082227819
 30
0.0
 11
62.3797438698017
 21
250.1055082227819
 31
0.0
  0
LINE
  8
ITEM_25
 10
65.60431205870577
 20
252.2483521898038
 30
0.0
 11
65.60431205870577
 21
250.1055082227819
 31
0.0
  0
LINE
  8
ITEM_25
 10
65.60431205870577
 20
250.1055082227819
 30
0.0
 11
68.82888024760995
 21
250.1055082227819
 31
0.0
  0
ARC
  8
ITEM_50
 10
64.58393559310536
 20
127.7055082227819
 30
0.0
 40
3.820376465600411
 50
335.2407154098332
 51
24.75928459016656
  0
ARC
  8
ITEM_50
 10
66.62468852430617
 20
127.7055082227819
 30
0.0
 40
3.820376465600411
 50
155.2407154098308
 51
204.7592845901693
  0
ARC
  8
ITEM_50
 10
64.58393559310536
 20
250.1055082227819
 30
0.0
 40
3.820376465600411
 50
335.2407154098332
 51
24.75928459016656
  0
ARC
  8
ITEM_50
 10
66.62468852430617
 20
250.1055082227819
 30
0.0
 40
3.820376465600411
 50
155.2407154098308
 51
204.7592845901693
  0
ARC
  8
ITEM_50
 10
369.2839355931053
 20
250.1055082227819
 30
0.0
 40
3.820376465600411
 50
335.2407154098332
 51
24.75928459016656
  0
ARC
  8
ITEM_50
 10
371.3246885243061
 20
250.1055082227819
 30
0.0
 40
3.820376465600411
 50
155.2407154098308
 51
204.7592845901693
  0
ARC
  8
ITEM_50
 10
369.2839355931053
 20
127.7055082227818
 30
0.0
 40
3.820376465600411
 50
335.2407154098332
 51
24.75928459016656
  0
ARC
  8
ITEM_50
 10
371.3246885243061
 20
127.7055082227818
 30
0.0
 40
3.820376465600411
 50
155.2407154098308
 51
204.7592845901693
  0
LINE
  8
ITEM_50
 10
372.7531251726632
 20
129.3055082227818
 30
0.0
 11
367.8554989447481
 21
129.3055082227818
 31
0.0
  0
LINE
  8
ITEM_50
 10
367.8554989447481
 20
126.1055082227819
 30
0.0
 11
372.7531251726632
 21
126.1055082227819
 31
0.0
  0
LINE
  8
ITEM_50
 10
63.15549894474827
 20
126.1055082227819
 30
0.0
 11
68.05312517266338
 21
126.1055082227819
 31
0.0
  0
LINE
  8
ITEM_50
 10
68.05312517266338
 20
129.3055082227818
 30
0.0
 11
63.15549894474827
 21
129.3055082227818
 31
0.0
  0
LINE
  8
ITEM_50
 10
372.7532864462
 20
248.505857949427
 30
0.0
 11
367.8530908096268
 21
248.5107400119293
 31
0.0
  0
LINE
  8
ITEM_50
 10
367.8554989447482
 20
251.7055082227818
 30
0.0
 11
372.7531251726633
 21
251.7055082227821
 31
0.0
  0
LINE
  8
ITEM_50
 10
68.05312517266338
 20
251.7055082227821
 30
0.0
 11
63.15549894474827
 21
251.7055082227821
 31
0.0
  0
LINE
  8
ITEM_50
 10
63.15549894474827
 20
248.505508222782
 30
0.0
 11
68.05312517266338
 21
248.505508222782
 31
0.0
  0
LINE
  8
ITEM_50
 10
58.10431205870577
 20
124.7055082227819
 30
0.0
 11
58.10431205870577
 21
253.1055082227819
 31
0.0
  0
LINE
  8
ITEM_50
 10
377.8043120587057
 20
124.7055082227818
 30
0.0
 11
58.10431205870577
 21
124.7055082227819
 31
0.0
  0
LINE
  8
ITEM_50
 10
377.8043120587057
 20
253.1055082227819
 30
0.0
 11
377.8043120587057
 21
124.7055082227818
 31
0.0
  0
LINE
  8
ITEM_50
 10
58.10431205870577
 20
253.1055082227819
 30
0.0
 11
377.8043120587057
 21
253.1055082227819
 31
0.0
  0
LINE
  8
ITEM_50
 10
121.3293120587059
 20
203.7055082227818
 30
0.0
 11
214.8793120587059
 21
203.7055082227818
 31
0.0
  0
LINE
  8
ITEM_50
 10
214.8793120587059
 20
203.7055082227818
 30
0.0
 11
214.8793120587059
 21
209.5055082227818
 31
0.0
  0
LINE
  8
ITEM_50
 10
214.8793120587059
 20
209.5055082227818
 30
0.0
 11
121.3293120587059
 21
209.5055082227818
 31
0.0
  0
LINE
  8
ITEM_50
 10
121.3293120587059
 20
209.5055082227818
 30
0.0
 11
121.3293120587059
 21
203.7055082227818
 31
0.0
  0
SOLID
  8
ITEM_50
 10
225.1043120587058
 20
195.8555082227818
 30
0.0
 11
225.1043120587058
 21
195.3555082227818
 31
0.0
 12
111.1043120587058
 22
195.8555082227819
 32
0.0
 13
111.1043120587058
 23
195.3555082227819
 33
0.0
  0
SOLID
  8
ITEM_50
 10
111.1043120587058
 20
214.8555082227819
 30
0.0
 11
111.1043120587058
 21
214.3555082227819
 31
0.0
 12
225.1043120587058
 22
214.8555082227818
 32
0.0
 13
225.1043120587058
 23
214.3555082227818
 33
0.0
  0
SOLID
  8
ITEM_50
 10
108.3543120587058
 20
212.1055082227819
 30
0.0
 11
108.8543120587058
 21
212.1055082227819
 31
0.0
 12
108.3543120587058
 22
198.1055082227819
 32
0.0
 13
108.8543120587058
 23
198.1055082227819
 33
0.0
  0
POLYLINE
  8
ITEM_50
 66
     1
 10
0.0
 20
0.0
 30
0.0
 40
0.5
 41
0.5
  0
VERTEX
  8
ITEM_50
 10
108.6043120587058
 20
198.1055082227819
 30
0.0
 42
0.414213562373095
  0
VERTEX
  8
ITEM_50
 10
111.1043120587058
 20
195.6055082227819
 30
0.0
 42
1.0
  0
SEQEND
  8
ITEM_50
  0
POLYLINE
  8
ITEM_50
 66
     1
 10
0.0
 20
0.0
 30
0.0
 40
0.5
 41
0.5
  0
VERTEX
  8
ITEM_50
 10
111.1043120587058
 20
214.6055082227819
 30
0.0
 42
0.414213562373095
  0
VERTEX
  8
ITEM_50
 10
108.6043120587058
 20
212.1055082227819
 30
0.0
 42
1.0
  0
SEQEND
  8
ITEM_50
  0
SOLID
  8
ITEM_50
 10
227.3543120587058
 20
212.1055082227818
 30
0.0
 11
227.8543120587058
 21
212.1055082227818
 31
0.0
 12
227.3543120587058
 22
198.1055082227818
 32
0.0
 13
227.8543120587058
 23
198.1055082227818
 33
0.0
  0
POLYLINE
  8
ITEM_50
 66
     1
 10
0.0
 20
0.0
 30
0.0
 40
0.5
 41
0.5
  0
VERTEX
  8
ITEM_50
 10
225.1043120587058
 20
195.6055082227818
 30
0.0
 42
0.414213562373095
  0
VERTEX
  8
ITEM_50
 10
227.6043120587058
 20
198.1055082227818
 30
0.0
 42
1.0
  0
SEQEND
  8
ITEM_50
  0
POLYLINE
  8
ITEM_50
 66
     1
 10
0.0
 20
0.0
 30
0.0
 40
0.5
 41
0.5
  0
VERTEX
  8
ITEM_50
 10
227.6043120587058
 20
212.1055082227818
 30
0.0
 42
0.414213562373095
  0
VERTEX
  8
ITEM_50
 10
225.1043120587058
 20
214.6055082227818
 30
0.0
 42
1.0
  0
SEQEND
  8
ITEM_50
  0
ARC
  8
ITEM_50
 10
225.1043120587058
 20
198.1055082227818
 30
0.0
 40
2.75
 50
270.0
 51
0.0
  0
LINE
  8
ITEM_50
 10
227.8543120587058
 20
212.1055082227818
 30
0.0
 11
227.8543120587058
 21
198.1055082227818
 31
0.0
  0
ARC
  8
ITEM_50
 10
225.1043120587058
 20
212.1055082227818
 30
0.0
 40
2.75
 50
0.0
 51
90.0
  0
LINE
  8
ITEM_50
 10
111.1043120587058
 20
214.8555082227819
 30
0.0
 11
225.1043120587058
 21
214.8555082227818
 31
0.0
  0
LINE
  8
ITEM_50
 10
111.1043120587058
 20
195.3555082227819
 30
0.0
 11
225.1043120587058
 21
195.3555082227818
 31
0.0
  0
ARC
  8
ITEM_50
 10
111.1043120587058
 20
198.1055082227819
 30
0.0
 40
2.75
 50
180.0
 51
270.0
  0
LINE
  8
ITEM_50
 10
108.3543120587058
 20
212.1055082227819
 30
0.0
 11
108.3543120587058
 21
198.1055082227819
 31
0.0
  0
ARC
  8
ITEM_50
 10
111.1043120587058
 20
212.1055082227819
 30
0.0
 40
2.75
 50
89.99999999999998
 51
180.0
  0
LINE
  8
ITEM_50
 10
111.1043120587058
 20
214.3555082227819
 30
0.0
 11
225.1043120587058
 21
214.3555082227818
 31
0.0
  0
ARC
  8
ITEM_50
 10
225.1043120587058
 20
212.1055082227818
 30
0.0
 40
2.25
 50
0.0
 51
90.0
  0
LINE
  8
ITEM_50
 10
227.3543120587058
 20
212.1055082227818
 30
0.0
 11
227.3543120587058
 21
198.1055082227818
 31
0.0
  0
ARC
  8
ITEM_50
 10
225.1043120587058
 20
198.1055082227818
 30
0.0
 40
2.25
 50
270.0
 51
0.0
  0
LINE
  8
ITEM_50
 10
111.1043120587058
 20
195.8555082227819
 30
0.0
 11
225.1043120587058
 21
195.8555082227818
 31
0.0
  0
ARC
  8
ITEM_50
 10
111.1043120587058
 20
198.1055082227819
 30
0.0
 40
2.25
 50
180.0
 51
270.0
  0
LINE
  8
ITEM_50
 10
108.8543120587058
 20
212.1055082227819
 30
0.0
 11
108.8543120587058
 21
198.1055082227819
 31
0.0
  0
ARC
  8
ITEM_50
 10
111.1043120587058
 20
212.1055082227819
 30
0.0
 40
2.25
 50
89.99999999999998
 51
180.0
  0
ARC
  8
ITEM_25
 10
254.1043120587058
 20
227.1055082227818
 30
0.0
 40
4.0
 50
0.0
 51
90.0
  0
ARC
  8
ITEM_25
 10
254.1043120587058
 20
183.1055082227818
 30
0.0
 40
4.0
 50
270.0
 51
0.0
  0
ARC
  8
ITEM_25
 10
82.10431205870577
 20
183.1055082227819
 30
0.0
 40
4.0
 50
180.0
 51
270.0
  0
ARC
  8
ITEM_25
 10
82.10431205870588
 20
227.1055082227819
 30
0.0
 40
4.0
 50
89.99999999999998
 51
180.0
  0
LINE
  8
ITEM_25
 10
82.10431205870577
 20
179.1055082227819
 30
0.0
 11
254.1043120587058
 21
179.1055082227818
 31
0.0
  0
LINE
  8
ITEM_25
 10
82.10431205870588
 20
231.1055082227819
 30
0.0
 11
254.1043120587058
 21
231.1055082227818
 31
0.0
  0
LINE
  8
ITEM_25
 10
258.1043120587058
 20
227.1055082227818
 30
0.0
 11
258.1043120587058
 21
183.1055082227818
 31
0.0
  0
LINE
  8
ITEM_25
 10
78.10431205870588
 20
227.1055082227819
 30
0.0
 11
78.10431205870577
 21
183.1055082227819
 31
0.0
  0
POINT
  8
ITEM_HILFE
 10
443.6826408682725
 20
250.1055082227819
 30
0.0
  0
POINT
  8
ITEM_HILFE
 10
443.6826408682725
 20
127.7055082227818
 30
0.0
  0
POINT
  8
ITEM_HILFE
 10
65.60431205870577
 20
49.79803986073522
 30
0.0
  0
POINT
  8
ITEM_HILFE
 10
370.3043120587058
 20
49.79803986073522
 30
0.0
  0
LINE
  8
ITEM_50
 10
377.8043120587058
 20
47.29803986073522
 30
0.0
 11
58.33216204065888
 21
47.29803986073522
 31
0.0
  0
LINE
  8
ITEM_50
 10
377.8043120587058
 20
49.79803986073522
 30
0.0
 11
58.33216204065888
 21
49.79803986073522
 31
0.0
  0
LINE
  8
ITEM_50
 10
377.8043120587058
 20
47.29803986073522
 30
0.0
 11
377.8043120587058
 21
49.79803986073522
 31
0.0
  0
LINE
  8
ITEM_50
 10
58.33216204065888
 20
47.29803986073522
 30
0.0
 11
58.33216204065888
 21
49.79803986073522
 31
0.0
  0
LINE
  8
ITEM_50
 10
58.33216204065888
 20
49.79803986073522
 30
0.0
 11
58.33216204065887
 21
49.79803986073522
 31
0.0
  0
ENDSEC
  0
EOF
